ISO-10303-21;
HEADER;
FILE_DESCRIPTION (( 'STEP AP203' ),
    '1' );
FILE_NAME ('End Cap SDR11_001 117 0140 0110.step',
    '2019-12-16T11:41:09',
    ( '' ),
    ( '' ),
    'SwSTEP 2.0',
    'SolidWorks 2019',
    '' );
FILE_SCHEMA (( 'CONFIG_CONTROL_DESIGN' ));
ENDSEC;

DATA;
#1 = ORIENTED_EDGE ( 'NONE', *, *, #262, .F. ) ;
#2 = AXIS2_PLACEMENT_3D ( 'NONE', #300, #83, #192 ) ;
#3 = DIRECTION ( 'NONE',  ( -0.0000000000000000000, -1.000000000000000000, -0.0000000000000000000 ) ) ;
#4 = DIRECTION ( 'NONE',  ( 0.0000000000000000000, 0.0000000000000000000, -1.000000000000000000 ) ) ;
#5 = CARTESIAN_POINT ( 'NONE',  ( -1.946596921116310046E-16, -65.83291255075324955, -1.589517012147181108 ) ) ;
#6 = DIRECTION ( 'NONE',  ( 0.0000000000000000000, 0.0000000000000000000, 1.000000000000000000 ) ) ;
#7 = CC_DESIGN_APPROVAL ( #225, ( #103 ) ) ;
#8 = CARTESIAN_POINT ( 'NONE',  ( 5.510910596163091922E-15, 82.00000000000002842, 45.00000000000001421 ) ) ;
#9 = FACE_OUTER_BOUND ( 'NONE', #305, .T. ) ;
#10 = DIRECTION ( 'NONE',  ( -0.0000000000000000000, -1.000000000000000000, -0.0000000000000000000 ) ) ;
#11 =( GEOMETRIC_REPRESENTATION_CONTEXT ( 3 ) GLOBAL_UNCERTAINTY_ASSIGNED_CONTEXT ( ( #291 ) ) GLOBAL_UNIT_ASSIGNED_CONTEXT ( ( #12, #299, #279 ) ) REPRESENTATION_CONTEXT ( 'NONE', 'WORKASPACE' ) );
#12 =( LENGTH_UNIT ( ) NAMED_UNIT ( * ) SI_UNIT ( .MILLI., .METRE. ) );
#13 = APPROVAL_STATUS ( 'not_yet_approved' ) ;
#14 = APPROVAL_STATUS ( 'not_yet_approved' ) ;
#15 = VERTEX_POINT ( 'NONE', #22 ) ;
#16 = ORIENTED_EDGE ( 'NONE', *, *, #131, .T. ) ;
#17 = PERSON_AND_ORGANIZATION ( #239, #160 ) ;
#18 = ORIENTED_EDGE ( 'NONE', *, *, #168, .F. ) ;
#19 = SHAPE_DEFINITION_REPRESENTATION ( #46, #184 ) ;
#20 = APPROVAL_PERSON_ORGANIZATION ( #238, #294, #109 ) ;
#21 = ORIENTED_EDGE ( 'NONE', *, *, #210, .T. ) ;
#22 = CARTESIAN_POINT ( 'NONE',  ( 5.510910596163090344E-15, 0.0000000000000000000, 45.00000000000000000 ) ) ;
#23 = FACE_OUTER_BOUND ( 'NONE', #169, .T. ) ;
#24 = CARTESIAN_POINT ( 'NONE',  ( 0.0000000000000000000, 0.0000000000000000000, -54.99999999999999289 ) ) ;
#25 = CARTESIAN_POINT ( 'NONE',  ( 0.0000000000000000000, -65.83291255075324955, 1.589517012147181108 ) ) ;
#26 = DIRECTION ( 'NONE',  ( -0.0000000000000000000, -1.000000000000000000, -0.0000000000000000000 ) ) ;
#27 = DIRECTION ( 'NONE',  ( -0.0000000000000000000, -1.000000000000000000, -0.0000000000000000000 ) ) ;
#28 = CARTESIAN_POINT ( 'NONE',  ( 0.0000000000000000000, 89.15943101605623156, 0.0000000000000000000 ) ) ;
#29 = DIRECTION ( 'NONE',  ( 0.0000000000000000000, 0.0000000000000000000, -1.000000000000000000 ) ) ;
#30 = CARTESIAN_POINT ( 'NONE',  ( -1.626303258728256651E-14, 99.15943101605621735, 0.0000000000000000000 ) ) ;
#31 = AXIS2_PLACEMENT_3D ( 'NONE', #58, #159, #261 ) ;
#32 = APPLICATION_PROTOCOL_DEFINITION ( 'international standard', 'config_control_design', 1994, #228 ) ;
#33 = PRODUCT_RELATED_PRODUCT_CATEGORY ( 'detail', '', ( #170 ) ) ;
#34 = PERSON_AND_ORGANIZATION_ROLE ( 'design_owner' ) ;
#35 = DATE_AND_TIME ( #264, #247 ) ;
#36 = CIRCLE ( 'NONE', #31, 155.0004939626445832 ) ;
#37 = VECTOR ( 'NONE', #278, 1000.000000000000000 ) ;
#38 = ORIENTED_EDGE ( 'NONE', *, *, #181, .T. ) ;
#39 = PERSON_AND_ORGANIZATION ( #239, #160 ) ;
#40 = VERTEX_POINT ( 'NONE', #119 ) ;
#41 = CALENDAR_DATE ( 2019, 16, 12 ) ;
#42 = EDGE_LOOP ( 'NONE', ( #165, #286, #137 ) ) ;
#43 = AXIS2_PLACEMENT_3D ( 'NONE', #107, #215, #298 ) ;
#44 = LOCAL_TIME ( 14, 41, 9.000000000000000000, #222 ) ;
#45 = ORIENTED_EDGE ( 'NONE', *, *, #136, .T. ) ;
#46 = PRODUCT_DEFINITION_SHAPE ( 'NONE', 'NONE',  #303 ) ;
#47 = DIRECTION ( 'NONE',  ( -0.0000000000000000000, -1.000000000000000000, -0.0000000000000000000 ) ) ;
#48 = CARTESIAN_POINT ( 'NONE',  ( 0.0000000000000000000, 89.15943101605623156, 0.0000000000000000000 ) ) ;
#49 = CIRCLE ( 'NONE', #43, 54.99999999999999289 ) ;
#50 = VECTOR ( 'NONE', #10, 1000.000000000000000 ) ;
#51 = ADVANCED_FACE ( 'NONE', ( #226 ), #208, .F. ) ;
#52 = LINE ( 'NONE', #148, #154 ) ;
#53 = FACE_OUTER_BOUND ( 'NONE', #68, .T. ) ;
#54 = AXIS2_PLACEMENT_3D ( 'NONE', #157, #258, #29 ) ;
#55 = TOROIDAL_SURFACE ( 'NONE', #54, -1.589517012147181108, 155.0004939626445832 ) ;
#56 = DIRECTION ( 'NONE',  ( -0.0000000000000000000, -1.000000000000000000, -0.0000000000000000000 ) ) ;
#57 = CARTESIAN_POINT ( 'NONE',  ( 6.735557395310442615E-15, 0.0000000000000000000, 55.00000000000000000 ) ) ;
#58 = CARTESIAN_POINT ( 'NONE',  ( -1.946596921116310046E-16, -65.83291255075324955, -1.589517012147181108 ) ) ;
#59 = AXIS2_PLACEMENT_3D ( 'NONE', #297, #80, #187 ) ;
#60 = CC_DESIGN_APPROVAL ( #294, ( #303 ) ) ;
#61 = PERSON_AND_ORGANIZATION_ROLE ( 'creator' ) ;
#62 = PERSON_AND_ORGANIZATION_ROLE ( 'creator' ) ;
#63 = ORIENTED_EDGE ( 'NONE', *, *, #259, .F. ) ;
#64 = TOROIDAL_SURFACE ( 'NONE', #59, -1.589517012147181108, 165.0000000000000000 ) ;
#65 = ORIENTED_EDGE ( 'NONE', *, *, #188, .T. ) ;
#66 = APPROVAL_STATUS ( 'not_yet_approved' ) ;
#67 = ORIENTED_EDGE ( 'NONE', *, *, #260, .T. ) ;
#68 = EDGE_LOOP ( 'NONE', ( #269, #144, #16, #92 ) ) ;
#69 = AXIS2_PLACEMENT_3D ( 'NONE', #28, #128, #235 ) ;
#70 = DIRECTION ( 'NONE',  ( 0.0000000000000000000, 0.0000000000000000000, -1.000000000000000000 ) ) ;
#71 = ADVANCED_FACE ( 'NONE', ( #95 ), #173, .T. ) ;
#72 = LINE ( 'NONE', #174, #186 ) ;
#73 = CARTESIAN_POINT ( 'NONE',  ( 45.00000000000000000, 0.0000000000000000000, 0.0000000000000000000 ) ) ;
#74 = AXIS2_PLACEMENT_3D ( 'NONE', #277, #56, #156 ) ;
#75 = CIRCLE ( 'NONE', #69, 54.99999999999997868 ) ;
#76 = DIRECTION ( 'NONE',  ( -0.0000000000000000000, -1.000000000000000000, -0.0000000000000000000 ) ) ;
#77 = CARTESIAN_POINT ( 'NONE',  ( 0.0000000000000000000, 0.0000000000000000000, 0.0000000000000000000 ) ) ;
#78 = FACE_OUTER_BOUND ( 'NONE', #248, .T. ) ;
#79 = AXIS2_PLACEMENT_3D ( 'NONE', #105, #212, #296 ) ;
#80 = DIRECTION ( 'NONE',  ( -0.0000000000000000000, -1.000000000000000000, -0.0000000000000000000 ) ) ;
#81 = LINE ( 'NONE', #189, #37 ) ;
#82 = MANIFOLD_SOLID_BREP ( 'Döndür1', #214 ) ;
#83 = DIRECTION ( 'NONE',  ( 0.0000000000000000000, 0.0000000000000000000, 1.000000000000000000 ) ) ;
#84 = AXIS2_PLACEMENT_3D ( 'NONE', #255, #27, #127 ) ;
#85 = LOCAL_TIME ( 14, 41, 9.000000000000000000, #267 ) ;
#86 = DATE_AND_TIME ( #301, #209 ) ;
#87 = DATE_AND_TIME ( #302, #143 ) ;
#88 = EDGE_LOOP ( 'NONE', ( #198, #21 ) ) ;
#89 = ORIENTED_EDGE ( 'NONE', *, *, #152, .F. ) ;
#90 = CIRCLE ( 'NONE', #79, 54.99999999999999289 ) ;
#91 = DATE_AND_TIME ( #306, #44 ) ;
#92 = ORIENTED_EDGE ( 'NONE', *, *, #210, .F. ) ;
#93 = APPROVAL ( #66, 'BELÝRTÝLMEMÝÞ' ) ;
#94 = VERTEX_POINT ( 'NONE', #251 ) ;
#95 = FACE_OUTER_BOUND ( 'NONE', #243, .T. ) ;
#96 = AXIS2_PLACEMENT_3D ( 'NONE', #77, #182, #276 ) ;
#97 = CIRCLE ( 'NONE', #96, 45.00000000000000000 ) ;
#98 = DIRECTION ( 'NONE',  ( 0.0000000000000000000, 0.0000000000000000000, -1.000000000000000000 ) ) ;
#99 = FACE_OUTER_BOUND ( 'NONE', #88, .T. ) ;
#100 = ADVANCED_FACE ( 'NONE', ( #23 ), #120, .F. ) ;
#101 = DIRECTION ( 'NONE',  ( 1.000000000000000000, 0.0000000000000000000, -1.224646799147353207E-16 ) ) ;
#102 = AXIS2_PLACEMENT_3D ( 'NONE', #104, #211, #295 ) ;
#103 = PRODUCT_DEFINITION_FORMATION_WITH_SPECIFIED_SOURCE ( 'HERHANGÝ', '', #170, .NOT_KNOWN. ) ;
#104 = CARTESIAN_POINT ( 'NONE',  ( 0.0000000000000000000, 82.00000000000002842, 0.0000000000000000000 ) ) ;
#105 = CARTESIAN_POINT ( 'NONE',  ( 0.0000000000000000000, 0.0000000000000000000, 0.0000000000000000000 ) ) ;
#106 = CIRCLE ( 'NONE', #102, 45.00000000000001421 ) ;
#107 = CARTESIAN_POINT ( 'NONE',  ( 0.0000000000000000000, 0.0000000000000000000, 0.0000000000000000000 ) ) ;
#108 = AXIS2_PLACEMENT_3D ( 'NONE', #150, #232, #6 ) ;
#109 = APPROVAL_ROLE ( '' ) ;
#110 = CIRCLE ( 'NONE', #108, 165.0000000000000000 ) ;
#111 = APPROVAL_ROLE ( '' ) ;
#112 = VERTEX_POINT ( 'NONE', #205 ) ;
#113 = ORIENTED_EDGE ( 'NONE', *, *, #131, .F. ) ;
#114 = PERSON_AND_ORGANIZATION_ROLE ( 'classification_officer' ) ;
#115 = ORIENTED_EDGE ( 'NONE', *, *, #188, .F. ) ;
#116 = AXIS2_PLACEMENT_3D ( 'NONE', #254, #26, #123 ) ;
#117 = TOROIDAL_SURFACE ( 'NONE', #116, -1.589517012147181108, 165.0000000000000000 ) ;
#118 = EDGE_LOOP ( 'NONE', ( #304, #89 ) ) ;
#119 = CARTESIAN_POINT ( 'NONE',  ( 6.735557395310441037E-15, 89.15943101605623156, 54.99999999999997868 ) ) ;
#120 = CYLINDRICAL_SURFACE ( 'NONE', #185, 45.00000000000000711 ) ;
#121 = CARTESIAN_POINT ( 'NONE',  ( 0.0000000000000000000, 0.0000000000000000000, 0.0000000000000000000 ) ) ;
#122 = DIRECTION ( 'NONE',  ( -1.000000000000000000, 0.0000000000000000000, 0.0000000000000000000 ) ) ;
#123 = DIRECTION ( 'NONE',  ( 0.0000000000000000000, 0.0000000000000000000, -1.000000000000000000 ) ) ;
#124 = CC_DESIGN_DATE_AND_TIME_ASSIGNMENT ( #91, #199, ( #191 ) ) ;
#125 = AXIS2_PLACEMENT_3D ( 'NONE', #293, #76, #179 ) ;
#126 = CC_DESIGN_SECURITY_CLASSIFICATION ( #191, ( #103 ) ) ;
#127 = DIRECTION ( 'NONE',  ( 0.0000000000000000000, 0.0000000000000000000, -1.000000000000000000 ) ) ;
#128 = DIRECTION ( 'NONE',  ( -0.0000000000000000000, -1.000000000000000000, -0.0000000000000000000 ) ) ;
#129 = LINE ( 'NONE', #237, #50 ) ;
#130 = CIRCLE ( 'NONE', #125, 45.00000000000001421 ) ;
#131 = EDGE_CURVE ( 'NONE', #221, #141, #72, .T. ) ;
#132 = APPLICATION_PROTOCOL_DEFINITION ( 'international standard', 'config_control_design', 1994, #242 ) ;
#133 = AXIS2_PLACEMENT_3D ( 'NONE', #5, #101, #207 ) ;
#134 = DATE_TIME_ROLE ( 'creation_date' ) ;
#135 = CIRCLE ( 'NONE', #133, 165.0000000000000000 ) ;
#136 = EDGE_CURVE ( 'NONE', #221, #40, #178, .T. ) ;
#137 = ORIENTED_EDGE ( 'NONE', *, *, #168, .T. ) ;
#138 = PERSON_AND_ORGANIZATION_ROLE ( 'design_supplier' ) ;
#139 = ORIENTED_EDGE ( 'NONE', *, *, #167, .T. ) ;
#140 = DATE_AND_TIME ( #41, #85 ) ;
#141 = VERTEX_POINT ( 'NONE', #24 ) ;
#142 = AXIS2_PLACEMENT_3D ( 'NONE', #25, #122, #230 ) ;
#143 = LOCAL_TIME ( 14, 41, 9.000000000000000000, #219 ) ;
#144 = ORIENTED_EDGE ( 'NONE', *, *, #231, .T. ) ;
#145 = DIRECTION ( 'NONE',  ( 0.0000000000000000000, 0.0000000000000000000, -1.000000000000000000 ) ) ;
#146 = DIRECTION ( 'NONE',  ( -0.0000000000000000000, -1.000000000000000000, -0.0000000000000000000 ) ) ;
#147 = CIRCLE ( 'NONE', #142, 155.0004939626445832 ) ;
#148 = CARTESIAN_POINT ( 'NONE',  ( 0.0000000000000000000, 0.0000000000000000000, -45.00000000000000711 ) ) ;
#149 = CC_DESIGN_PERSON_AND_ORGANIZATION_ASSIGNMENT ( #17, #114, ( #191 ) ) ;
#150 = CARTESIAN_POINT ( 'NONE',  ( 0.0000000000000000000, -65.83291255075324955, 1.589517012147181108 ) ) ;
#151 = CYLINDRICAL_SURFACE ( 'NONE', #84, 54.99999999999998579 ) ;
#152 = EDGE_CURVE ( 'NONE', #15, #94, #171, .T. ) ;
#153 = ADVANCED_FACE ( 'NONE', ( #99, #206 ), #292, .T. ) ;
#154 = VECTOR ( 'NONE', #253, 1000.000000000000000 ) ;
#155 = AXIS2_PLACEMENT_3D ( 'NONE', #73, #176, #274 ) ;
#156 = DIRECTION ( 'NONE',  ( 0.0000000000000000000, 0.0000000000000000000, -1.000000000000000000 ) ) ;
#157 = CARTESIAN_POINT ( 'NONE',  ( 0.0000000000000000000, -65.83291255075324955, 0.0000000000000000000 ) ) ;
#158 = EDGE_CURVE ( 'NONE', #112, #94, #52, .T. ) ;
#159 = DIRECTION ( 'NONE',  ( 1.000000000000000000, 0.0000000000000000000, -1.224646799147353207E-16 ) ) ;
#160 = ORGANIZATION ( 'BELÝRTÝLMEMÝÞ', 'BELÝRTÝLMEMÝÞ', '' ) ;
#161 = COORDINATED_UNIVERSAL_TIME_OFFSET ( 3, 0, .AHEAD. ) ;
#162 = EDGE_CURVE ( 'NONE', #201, #112, #147, .T. ) ;
#163 = AXIS2_PLACEMENT_3D ( 'NONE', #121, #229, #4 ) ;
#164 = EDGE_LOOP ( 'NONE', ( #266, #139, #288 ) ) ;
#165 = ORIENTED_EDGE ( 'NONE', *, *, #162, .F. ) ;
#166 = APPROVAL_ROLE ( '' ) ;
#167 = EDGE_CURVE ( 'NONE', #271, #40, #135, .T. ) ;
#168 = EDGE_CURVE ( 'NONE', #202, #112, #130, .T. ) ;
#169 = EDGE_LOOP ( 'NONE', ( #265, #115, #224, #196 ) ) ;
#170 = PRODUCT ( 'End Cap SDR11_001 117 0140 0110', 'End Cap SDR11_001 117 0140 0110', '', ( #281 ) ) ;
#171 = CIRCLE ( 'NONE', #163, 45.00000000000000000 ) ;
#172 = ORIENTED_EDGE ( 'NONE', *, *, #167, .F. ) ;
#173 = CYLINDRICAL_SURFACE ( 'NONE', #197, 54.99999999999998579 ) ;
#174 = CARTESIAN_POINT ( 'NONE',  ( 0.0000000000000000000, 0.0000000000000000000, -54.99999999999998579 ) ) ;
#175 = DESIGN_CONTEXT ( 'detailed design', #242, 'design' ) ;
#176 = DIRECTION ( 'NONE',  ( 0.0000000000000000000, -1.000000000000000000, -0.0000000000000000000 ) ) ;
#177 = AXIS2_PLACEMENT_3D ( 'NONE', #48, #146, #252 ) ;
#178 = CIRCLE ( 'NONE', #177, 54.99999999999997868 ) ;
#179 = DIRECTION ( 'NONE',  ( 0.0000000000000000000, 0.0000000000000000000, -1.000000000000000000 ) ) ;
#180 = ADVANCED_FACE ( 'NONE', ( #275 ), #117, .T. ) ;
#181 = EDGE_CURVE ( 'NONE', #271, #221, #110, .T. ) ;
#182 = DIRECTION ( 'NONE',  ( -0.0000000000000000000, -1.000000000000000000, -0.0000000000000000000 ) ) ;
#183 = CYLINDRICAL_SURFACE ( 'NONE', #74, 45.00000000000000711 ) ;
#184 = ADVANCED_BREP_SHAPE_REPRESENTATION ( 'End Cap SDR11_001 117 0140 0110', ( #82, #2 ), #11 ) ;
#185 = AXIS2_PLACEMENT_3D ( 'NONE', #227, #3, #98 ) ;
#186 = VECTOR ( 'NONE', #273, 1000.000000000000000 ) ;
#187 = DIRECTION ( 'NONE',  ( 0.0000000000000000000, 0.0000000000000000000, -1.000000000000000000 ) ) ;
#188 = EDGE_CURVE ( 'NONE', #112, #202, #106, .T. ) ;
#189 = CARTESIAN_POINT ( 'NONE',  ( 5.510910596163090344E-15, 0.0000000000000000000, 45.00000000000000711 ) ) ;
#190 = CC_DESIGN_PERSON_AND_ORGANIZATION_ASSIGNMENT ( #39, #138, ( #103 ) ) ;
#191 = SECURITY_CLASSIFICATION ( '', '', #244 ) ;
#192 = DIRECTION ( 'NONE',  ( 1.000000000000000000, 0.0000000000000000000, 0.0000000000000000000 ) ) ;
#193 = APPROVAL_DATE_TIME ( #86, #294 ) ;
#194 = EDGE_CURVE ( 'NONE', #94, #15, #97, .T. ) ;
#195 = APPROVAL_DATE_TIME ( #87, #225 ) ;
#196 = ORIENTED_EDGE ( 'NONE', *, *, #194, .T. ) ;
#197 = AXIS2_PLACEMENT_3D ( 'NONE', #272, #47, #145 ) ;
#198 = ORIENTED_EDGE ( 'NONE', *, *, #259, .T. ) ;
#199 = DATE_TIME_ROLE ( 'classification_date' ) ;
#200 = ADVANCED_FACE ( 'NONE', ( #53 ), #151, .T. ) ;
#201 = VERTEX_POINT ( 'NONE', #234 ) ;
#202 = VERTEX_POINT ( 'NONE', #8 ) ;
#203 = CARTESIAN_POINT ( 'NONE',  ( 0.0000000000000000000, -65.83291255075324955, 0.0000000000000000000 ) ) ;
#204 = AXIS2_PLACEMENT_3D ( 'NONE', #203, #290, #70 ) ;
#205 = CARTESIAN_POINT ( 'NONE',  ( 0.0000000000000000000, 82.00000000000002842, -45.00000000000001421 ) ) ;
#206 = FACE_BOUND ( 'NONE', #118, .T. ) ;
#207 = DIRECTION ( 'NONE',  ( -1.224646799147353207E-16, 0.0000000000000000000, -1.000000000000000000 ) ) ;
#208 = TOROIDAL_SURFACE ( 'NONE', #204, -1.589517012147181108, 155.0004939626445832 ) ;
#209 = LOCAL_TIME ( 14, 41, 9.000000000000000000, #218 ) ;
#210 = EDGE_CURVE ( 'NONE', #245, #141, #90, .T. ) ;
#211 = DIRECTION ( 'NONE',  ( -0.0000000000000000000, -1.000000000000000000, -0.0000000000000000000 ) ) ;
#212 = DIRECTION ( 'NONE',  ( -0.0000000000000000000, -1.000000000000000000, -0.0000000000000000000 ) ) ;
#213 = FACE_OUTER_BOUND ( 'NONE', #220, .T. ) ;
#214 = CLOSED_SHELL ( 'NONE', ( #51, #180, #71, #217, #100, #153, #200, #236, #241 ) ) ;
#215 = DIRECTION ( 'NONE',  ( -0.0000000000000000000, -1.000000000000000000, -0.0000000000000000000 ) ) ;
#216 = CC_DESIGN_PERSON_AND_ORGANIZATION_ASSIGNMENT ( #283, #62, ( #103 ) ) ;
#217 = ADVANCED_FACE ( 'NONE', ( #78 ), #183, .F. ) ;
#218 = COORDINATED_UNIVERSAL_TIME_OFFSET ( 3, 0, .AHEAD. ) ;
#219 = COORDINATED_UNIVERSAL_TIME_OFFSET ( 3, 0, .AHEAD. ) ;
#220 = EDGE_LOOP ( 'NONE', ( #1, #284, #65 ) ) ;
#221 = VERTEX_POINT ( 'NONE', #256 ) ;
#222 = COORDINATED_UNIVERSAL_TIME_OFFSET ( 3, 0, .AHEAD. ) ;
#223 = ORIENTED_EDGE ( 'NONE', *, *, #231, .F. ) ;
#224 = ORIENTED_EDGE ( 'NONE', *, *, #158, .T. ) ;
#225 = APPROVAL ( #14, 'BELÝRTÝLMEMÝÞ' ) ;
#226 = FACE_OUTER_BOUND ( 'NONE', #42, .T. ) ;
#227 = CARTESIAN_POINT ( 'NONE',  ( 0.0000000000000000000, 0.0000000000000000000, 0.0000000000000000000 ) ) ;
#228 = APPLICATION_CONTEXT ( 'configuration controlled 3d designs of mechanical parts and assemblies' ) ;
#229 = DIRECTION ( 'NONE',  ( -0.0000000000000000000, -1.000000000000000000, -0.0000000000000000000 ) ) ;
#230 = DIRECTION ( 'NONE',  ( 0.0000000000000000000, 0.0000000000000000000, 1.000000000000000000 ) ) ;
#231 = EDGE_CURVE ( 'NONE', #40, #221, #75, .T. ) ;
#232 = DIRECTION ( 'NONE',  ( -1.000000000000000000, 0.0000000000000000000, 0.0000000000000000000 ) ) ;
#233 = APPROVAL_PERSON_ORGANIZATION ( #287, #93, #166 ) ;
#234 = CARTESIAN_POINT ( 'NONE',  ( -2.160526485124692509E-14, 89.15943101605623156, 0.0000000000000000000 ) ) ;
#235 = DIRECTION ( 'NONE',  ( 0.0000000000000000000, 0.0000000000000000000, -1.000000000000000000 ) ) ;
#236 = ADVANCED_FACE ( 'NONE', ( #9 ), #64, .T. ) ;
#237 = CARTESIAN_POINT ( 'NONE',  ( 6.735557395310441037E-15, 0.0000000000000000000, 54.99999999999998579 ) ) ;
#238 = PERSON_AND_ORGANIZATION ( #239, #160 ) ;
#239 = PERSON ( 'BELÝRTÝLMEMÝÞ', 'BELÝRTÝLMEMÝÞ', 'BELÝRTÝLMEMÝÞ', ('BELÝRTÝLMEMÝÞ'), ('BELÝRTÝLMEMÝÞ'), ('BELÝRTÝLMEMÝÞ') ) ;
#240 = PERSON_AND_ORGANIZATION ( #239, #160 ) ;
#241 = ADVANCED_FACE ( 'NONE', ( #213 ), #55, .F. ) ;
#242 = APPLICATION_CONTEXT ( 'configuration controlled 3d designs of mechanical parts and assemblies' ) ;
#243 = EDGE_LOOP ( 'NONE', ( #45, #250, #63, #113 ) ) ;
#244 = SECURITY_CLASSIFICATION_LEVEL ( 'unclassified' ) ;
#245 = VERTEX_POINT ( 'NONE', #57 ) ;
#246 = APPROVAL_DATE_TIME ( #140, #93 ) ;
#247 = LOCAL_TIME ( 14, 41, 9.000000000000000000, #161 ) ;
#248 = EDGE_LOOP ( 'NONE', ( #18, #67, #307, #289 ) ) ;
#249 = CC_DESIGN_DATE_AND_TIME_ASSIGNMENT ( #35, #134, ( #303 ) ) ;
#250 = ORIENTED_EDGE ( 'NONE', *, *, #257, .T. ) ;
#251 = CARTESIAN_POINT ( 'NONE',  ( 0.0000000000000000000, 0.0000000000000000000, -45.00000000000000000 ) ) ;
#252 = DIRECTION ( 'NONE',  ( 0.0000000000000000000, 0.0000000000000000000, -1.000000000000000000 ) ) ;
#253 = DIRECTION ( 'NONE',  ( -0.0000000000000000000, -1.000000000000000000, -0.0000000000000000000 ) ) ;
#254 = CARTESIAN_POINT ( 'NONE',  ( 0.0000000000000000000, -65.83291255075324955, 0.0000000000000000000 ) ) ;
#255 = CARTESIAN_POINT ( 'NONE',  ( 0.0000000000000000000, 0.0000000000000000000, 0.0000000000000000000 ) ) ;
#256 = CARTESIAN_POINT ( 'NONE',  ( 0.0000000000000000000, 89.15943101605623156, -54.99999999999997868 ) ) ;
#257 = EDGE_CURVE ( 'NONE', #40, #245, #129, .T. ) ;
#258 = DIRECTION ( 'NONE',  ( -0.0000000000000000000, -1.000000000000000000, -0.0000000000000000000 ) ) ;
#259 = EDGE_CURVE ( 'NONE', #141, #245, #49, .T. ) ;
#260 = EDGE_CURVE ( 'NONE', #202, #15, #81, .T. ) ;
#261 = DIRECTION ( 'NONE',  ( -1.224646799147353207E-16, 0.0000000000000000000, -1.000000000000000000 ) ) ;
#262 = EDGE_CURVE ( 'NONE', #201, #202, #36, .T. ) ;
#263 = PERSON_AND_ORGANIZATION ( #239, #160 ) ;
#264 = CALENDAR_DATE ( 2019, 16, 12 ) ;
#265 = ORIENTED_EDGE ( 'NONE', *, *, #260, .F. ) ;
#266 = ORIENTED_EDGE ( 'NONE', *, *, #181, .F. ) ;
#267 = COORDINATED_UNIVERSAL_TIME_OFFSET ( 3, 0, .AHEAD. ) ;
#268 = CC_DESIGN_PERSON_AND_ORGANIZATION_ASSIGNMENT ( #282, #61, ( #303 ) ) ;
#269 = ORIENTED_EDGE ( 'NONE', *, *, #257, .F. ) ;
#270 = CC_DESIGN_APPROVAL ( #93, ( #191 ) ) ;
#271 = VERTEX_POINT ( 'NONE', #30 ) ;
#272 = CARTESIAN_POINT ( 'NONE',  ( 0.0000000000000000000, 0.0000000000000000000, 0.0000000000000000000 ) ) ;
#273 = DIRECTION ( 'NONE',  ( -0.0000000000000000000, -1.000000000000000000, -0.0000000000000000000 ) ) ;
#274 = DIRECTION ( 'NONE',  ( 0.0000000000000000000, 0.0000000000000000000, -1.000000000000000000 ) ) ;
#275 = FACE_OUTER_BOUND ( 'NONE', #164, .T. ) ;
#276 = DIRECTION ( 'NONE',  ( 0.0000000000000000000, 0.0000000000000000000, -1.000000000000000000 ) ) ;
#277 = CARTESIAN_POINT ( 'NONE',  ( 0.0000000000000000000, 0.0000000000000000000, 0.0000000000000000000 ) ) ;
#278 = DIRECTION ( 'NONE',  ( -0.0000000000000000000, -1.000000000000000000, -0.0000000000000000000 ) ) ;
#279 =( NAMED_UNIT ( * ) SI_UNIT ( $, .STERADIAN. ) SOLID_ANGLE_UNIT ( ) );
#280 = APPROVAL_PERSON_ORGANIZATION ( #240, #225, #111 ) ;
#281 = MECHANICAL_CONTEXT ( 'NONE', #228, 'mechanical' ) ;
#282 = PERSON_AND_ORGANIZATION ( #239, #160 ) ;
#283 = PERSON_AND_ORGANIZATION ( #239, #160 ) ;
#284 = ORIENTED_EDGE ( 'NONE', *, *, #162, .T. ) ;
#285 = CC_DESIGN_PERSON_AND_ORGANIZATION_ASSIGNMENT ( #263, #34, ( #170 ) ) ;
#286 = ORIENTED_EDGE ( 'NONE', *, *, #262, .T. ) ;
#287 = PERSON_AND_ORGANIZATION ( #239, #160 ) ;
#288 = ORIENTED_EDGE ( 'NONE', *, *, #136, .F. ) ;
#289 = ORIENTED_EDGE ( 'NONE', *, *, #158, .F. ) ;
#290 = DIRECTION ( 'NONE',  ( -0.0000000000000000000, -1.000000000000000000, -0.0000000000000000000 ) ) ;
#291 = UNCERTAINTY_MEASURE_WITH_UNIT (LENGTH_MEASURE( 1.000000000000000082E-05 ), #12, 'distance_accuracy_value', 'NONE');
#292 = PLANE ( 'NONE',  #155 ) ;
#293 = CARTESIAN_POINT ( 'NONE',  ( 0.0000000000000000000, 82.00000000000002842, 0.0000000000000000000 ) ) ;
#294 = APPROVAL ( #13, 'BELÝRTÝLMEMÝÞ' ) ;
#295 = DIRECTION ( 'NONE',  ( 0.0000000000000000000, 0.0000000000000000000, -1.000000000000000000 ) ) ;
#296 = DIRECTION ( 'NONE',  ( 0.0000000000000000000, 0.0000000000000000000, -1.000000000000000000 ) ) ;
#297 = CARTESIAN_POINT ( 'NONE',  ( 0.0000000000000000000, -65.83291255075324955, 0.0000000000000000000 ) ) ;
#298 = DIRECTION ( 'NONE',  ( 0.0000000000000000000, 0.0000000000000000000, -1.000000000000000000 ) ) ;
#299 =( NAMED_UNIT ( * ) PLANE_ANGLE_UNIT ( ) SI_UNIT ( $, .RADIAN. ) );
#300 = CARTESIAN_POINT ( 'NONE',  ( 0.0000000000000000000, 0.0000000000000000000, 0.0000000000000000000 ) ) ;
#301 = CALENDAR_DATE ( 2019, 16, 12 ) ;
#302 = CALENDAR_DATE ( 2019, 16, 12 ) ;
#303 = PRODUCT_DEFINITION ( 'BÝLÝNMEYEN', '', #103, #175 ) ;
#304 = ORIENTED_EDGE ( 'NONE', *, *, #194, .F. ) ;
#305 = EDGE_LOOP ( 'NONE', ( #172, #38, #223 ) ) ;
#306 = CALENDAR_DATE ( 2019, 16, 12 ) ;
#307 = ORIENTED_EDGE ( 'NONE', *, *, #152, .T. ) ;
ENDSEC;
END-ISO-10303-21;
